  0
SECTION
  2
HEADER
  9
$ACADVER
  1
AC1015
  9
$ACADMAINTVER
 70
     6
  9
$DWGCODEPAGE
  3
ANSI_1254
  9
$INSBASE
 10
0.0
 20
0.0
 30
0.0
  9
$EXTMIN
 10
0.0
 20
0.0
 30
0.0
  9
$EXTMAX
 10
279.4
 20
215.9
 30
0.0
  9
$LIMMIN
 10
0.0
 20
0.0
  9
$LIMMAX
 10
279.4
 20
215.9
  9
$ORTHOMODE
 70
     0
  9
$REGENMODE
 70
     1
  9
$FILLMODE
 70
     1
  9
$QTEXTMODE
 70
     0
  9
$MIRRTEXT
 70
     1
  9
$LTSCALE
 40
1.0
  9
$ATTMODE
 70
     1
  9
$TEXTSIZE
 40
3.5
  9
$TRACEWID
 40
1.0
  9
$TEXTSTYLE
  7
Standard
  9
$CLAYER
  8
0
  9
$CELTYPE
  6
ByLayer
  9
$CECOLOR
 62
   256
  9
$CELTSCALE
 40
1.0
  9
$DISPSILH
 70
     0
  9
$DIMSCALE
 40
1.0
  9
$DIMASZ
 40
3.5
  9
$DIMEXO
 40
1.0
  9
$DIMDLI
 40
3.75
  9
$DIMRND
 40
0.0
  9
$DIMDLE
 40
0.0
  9
$DIMEXE
 40
1.0
  9
$DIMTP
 40
0.0
  9
$DIMTM
 40
0.0
  9
$DIMTXT
 40
3.5
  9
$DIMCEN
 40
2.5
  9
$DIMTSZ
 40
0.0
  9
$DIMTOL
 70
     0
  9
$DIMLIM
 70
     0
  9
$DIMTIH
 70
     1
  9
$DIMTOH
 70
     1
  9
$DIMSE1
 70
     0
  9
$DIMSE2
 70
     0
  9
$DIMTAD
 70
     1
  9
$DIMZIN
 70
     0
  9
$DIMBLK
  1

  9
$DIMASO
 70
     1
  9
$DIMSHO
 70
     1
  9
$DIMPOST
  1

  9
$DIMAPOST
  1

  9
$DIMALT
 70
     0
  9
$DIMALTD
 70
     3
  9
$DIMALTF
 40
0.0393700787
  9
$DIMLFAC
 40
1.0
  9
$DIMTOFL
 70
     1
  9
$DIMTVP
 40
0.0
  9
$DIMTIX
 70
     0
  9
$DIMSOXD
 70
     0
  9
$DIMSAH
 70
     0
  9
$DIMBLK1
  1

  9
$DIMBLK2
  1

  9
$DIMSTYLE
  2
ISO-25
  9
$DIMCLRD
 70
     0
  9
$DIMCLRE
 70
     0
  9
$DIMCLRT
 70
     0
  9
$DIMTFAC
 40
1.0
  9
$DIMGAP
 40
1.524
  9
$DIMJUST
 70
     0
  9
$DIMSD1
 70
     0
  9
$DIMSD2
 70
     0
  9
$DIMTOLJ
 70
     0
  9
$DIMTZIN
 70
     0
  9
$DIMALTZ
 70
     0
  9
$DIMALTTZ
 70
     0
  9
$DIMUPT
 70
     0
  9
$DIMDEC
 70
     2
  9
$DIMTDEC
 70
     2
  9
$DIMALTU
 70
     2
  9
$DIMALTTD
 70
     3
  9
$DIMTXSTY
  7
Standard
  9
$DIMAUNIT
 70
     0
  9
$DIMADEC
 70
     2
  9
$DIMALTRND
 40
0.0
  9
$DIMAZIN
 70
     0
  9
$DIMDSEP
 70
    44
  9
$DIMATFIT
 70
     3
  9
$DIMFRAC
 70
     0
  9
$DIMLDRBLK
  1

  9
$DIMLUNIT
 70
     2
  9
$DIMLWD
 70
    -2
  9
$DIMLWE
 70
    -2
  9
$DIMTMOVE
 70
     0
  9
$LUNITS
 70
     2
  9
$LUPREC
 70
     2
  9
$SKETCHINC
 40
1.0
  9
$FILLETRAD
 40
10.0
  9
$AUNITS
 70
     0
  9
$AUPREC
 70
     2
  9
$MENU
  1
.
  9
$ELEVATION
 40
0.0
  9
$PELEVATION
 40
0.0
  9
$THICKNESS
 40
0.0
  9
$LIMCHECK
 70
     0
  9
$CHAMFERA
 40
0.0
  9
$CHAMFERB
 40
0.0
  9
$CHAMFERC
 40
0.0
  9
$CHAMFERD
 40
0.0
  9
$SKPOLY
 70
     0
  9
$TDCREATE
 40
2459935.709312963
  9
$TDUCREATE
 40
2459935.584312963
  9
$TDUPDATE
 40
2459935.709313137
  9
$TDUUPDATE
 40
2459935.584313137
  9
$TDINDWG
 40
0.0000000116
  9
$TDUSRTIMER
 40
0.0000000116
  9
$USRTIMER
 70
     1
  9
$ANGBASE
 50
0.0
  9
$ANGDIR
 70
     0
  9
$PDMODE
 70
     0
  9
$PDSIZE
 40
-1.0
  9
$PLINEWID
 40
0.0
  9
$SPLFRAME
 70
     0
  9
$SPLINETYPE
 70
     6
  9
$SPLINESEGS
 70
     8
  9
$HANDSEED
  5
EE
  9
$SURFTAB1
 70
     6
  9
$SURFTAB2
 70
     6
  9
$SURFTYPE
 70
     6
  9
$SURFU
 70
     6
  9
$SURFV
 70
     6
  9
$UCSBASE
  2

  9
$UCSNAME
  2

  9
$UCSORG
 10
0.0
 20
0.0
 30
0.0
  9
$UCSXDIR
 10
1.0
 20
0.0
 30
0.0
  9
$UCSYDIR
 10
0.0
 20
1.0
 30
0.0
  9
$UCSORTHOREF
  2

  9
$UCSORTHOVIEW
 70
     0
  9
$UCSORGTOP
 10
0.0
 20
0.0
 30
0.0
  9
$UCSORGBOTTOM
 10
0.0
 20
0.0
 30
0.0
  9
$UCSORGLEFT
 10
0.0
 20
0.0
 30
0.0
  9
$UCSORGRIGHT
 10
0.0
 20
0.0
 30
0.0
  9
$UCSORGFRONT
 10
0.0
 20
0.0
 30
0.0
  9
$UCSORGBACK
 10
0.0
 20
0.0
 30
0.0
  9
$PUCSBASE
  2

  9
$PUCSNAME
  2

  9
$PUCSORG
 10
0.0
 20
0.0
 30
0.0
  9
$PUCSXDIR
 10
1.0
 20
0.0
 30
0.0
  9
$PUCSYDIR
 10
0.0
 20
1.0
 30
0.0
  9
$PUCSORTHOREF
  2

  9
$PUCSORTHOVIEW
 70
     0
  9
$PUCSORGTOP
 10
0.0
 20
0.0
 30
0.0
  9
$PUCSORGBOTTOM
 10
0.0
 20
0.0
 30
0.0
  9
$PUCSORGLEFT
 10
0.0
 20
0.0
 30
0.0
  9
$PUCSORGRIGHT
 10
0.0
 20
0.0
 30
0.0
  9
$PUCSORGFRONT
 10
0.0
 20
0.0
 30
0.0
  9
$PUCSORGBACK
 10
0.0
 20
0.0
 30
0.0
  9
$USERI1
 70
     0
  9
$USERI2
 70
     0
  9
$USERI3
 70
     0
  9
$USERI4
 70
     0
  9
$USERI5
 70
     0
  9
$USERR1
 40
0.0
  9
$USERR2
 40
0.0
  9
$USERR3
 40
0.0
  9
$USERR4
 40
0.0
  9
$USERR5
 40
0.0
  9
$WORLDVIEW
 70
     1
  9
$SHADEDGE
 70
     3
  9
$SHADEDIF
 70
    70
  9
$TILEMODE
 70
     1
  9
$MAXACTVP
 70
    64
  9
$PINSBASE
 10
0.0
 20
0.0
 30
0.0
  9
$PLIMCHECK
 70
     0
  9
$PEXTMIN
 10
1.0000000000E+20
 20
1.0000000000E+20
 30
1.0000000000E+20
  9
$PEXTMAX
 10
-1.0000000000E+20
 20
-1.0000000000E+20
 30
-1.0000000000E+20
  9
$PLIMMIN
 10
0.0
 20
0.0
  9
$PLIMMAX
 10
420.0
 20
297.0
  9
$UNITMODE
 70
     0
  9
$VISRETAIN
 70
     1
  9
$PLINEGEN
 70
     0
  9
$PSLTSCALE
 70
     1
  9
$TREEDEPTH
 70
  3020
  9
$CMLSTYLE
  2
Standard
  9
$CMLJUST
 70
     0
  9
$CMLSCALE
 40
20.0
  9
$PROXYGRAPHICS
 70
     1
  9
$MEASUREMENT
 70
     1
  9
$CELWEIGHT
370
    -1
  9
$ENDCAPS
280
     0
  9
$JOINSTYLE
280
     0
  9
$LWDISPLAY
290
     1
  9
$INSUNITS
 70
     4
  9
$HYPERLINKBASE
  1

  9
$STYLESHEET
  1

  9
$XEDIT
290
     1
  9
$CEPSNTYPE
380
     0
  9
$PSTYLEMODE
290
     1
  9
$FINGERPRINTGUID
  2
{bab60a5f-b79d-4381-8200-0f0d9bacc97c}
  9
$VERSIONGUID
  2
{FAEB1C32-E019-11D5-929B-00C0DF256EC4}
  9
$EXTNAMES
290
     1
  9
$PSVPSCALE
 40
0.0
  9
$OLESTARTUP
290
     0
  0
ENDSEC
  0
SECTION
  2
CLASSES
  0
CLASS
  1
ACDBDICTIONARYWDFLT
  2
AcDbDictionaryWithDefault
  3
ObjectDBX Classes
 90
        0
280
     0
281
     0
  0
CLASS
  1
VISUALSTYLE
  2
AcDbVisualStyle
  3
ObjectDBX Classes
 90
     4095
280
     0
281
     0
  0
CLASS
  1
MATERIAL
  2
AcDbMaterial
  3
ObjectDBX Classes
 90
     1153
280
     0
281
     0
  0
CLASS
  1
SCALE
  2
AcDbScale
  3
ObjectDBX Classes
 90
     1153
280
     0
281
     0
  0
CLASS
  1
TABLESTYLE
  2
AcDbTableStyle
  3
ObjectDBX Classes
 90
     4095
280
     0
281
     0
  0
CLASS
  1
MLEADERSTYLE
  2
AcDbMLeaderStyle
  3
ACDB_MLEADERSTYLE_CLASS
 90
     4095
280
     0
281
     0
  0
CLASS
  1
SUN
  2
AcDbSun
  3
SCENEOE
 90
     1153
280
     0
281
     0
  0
CLASS
  1
ACDBPLACEHOLDER
  2
AcDbPlaceHolder
  3
ObjectDBX Classes
 90
        0
280
     0
281
     0
  0
CLASS
  1
LAYOUT
  2
AcDbLayout
  3
ObjectDBX Classes
 90
        0
280
     0
281
     0
  0
ENDSEC
  0
SECTION
  2
TABLES
  0
TABLE
  2
VPORT
  5
8
330
0
100
AcDbSymbolTable
 70
     1
  0
VPORT
  5
29
330
8
100
AcDbSymbolTableRecord
100
AcDbViewportTableRecord
  2
*Active
 70
     0
 10
0.0
 20
0.0
 11
1.0
 21
1.0
 12
139.7
 22
107.95
 13
0.0
 23
0.0
 14
10.0
 24
10.0
 15
10.0
 25
10.0
 16
0.0
 26
0.0
 36
1.0
 17
0.0
 27
0.0
 37
0.0
 40
215.9
 41
1.2941176471
 42
50.0
 43
0.0
 44
0.0
 50
0.0
 51
0.0
 71
     0
 72
  2000
 73
     1
 74
     3
 75
     0
 76
     0
 77
     0
 78
     0
281
     0
 65
     1
110
0.0
120
0.0
130
0.0
111
1.0
121
0.0
131
0.0
112
0.0
122
1.0
132
0.0
 79
     0
146
0.0
  0
ENDTAB
  0
TABLE
  2
LTYPE
  5
5
330
0
100
AcDbSymbolTable
 70
     6
  0
LTYPE
  5
14
330
5
100
AcDbSymbolTableRecord
100
AcDbLinetypeTableRecord
  2
ByBlock
 70
     0
  3

 72
    65
 73
     0
 40
0.0
  0
LTYPE
  5
15
330
5
100
AcDbSymbolTableRecord
100
AcDbLinetypeTableRecord
  2
ByLayer
 70
     0
  3

 72
    65
 73
     0
 40
0.0
  0
LTYPE
  5
16
330
5
100
AcDbSymbolTableRecord
100
AcDbLinetypeTableRecord
  2
Continuous
 70
     0
  3
Solid line
 72
    65
 73
     0
 40
0.0
  0
LTYPE
  5
6E
330
5
100
AcDbSymbolTableRecord
100
AcDbLinetypeTableRecord
  2
HIDDEN
 70
     0
  3
Hidden __ __ __ __ __ __ __ __ __ __ __ __ __ __
 72
    65
 73
     2
 40
1.905
 49
1.27
 74
     0
 49
-0.635
 74
     0
  0
LTYPE
  5
6F
330
5
100
AcDbSymbolTableRecord
100
AcDbLinetypeTableRecord
  2
PHANTOM
 70
     0
  3
Phantom ______  __  __  ______  __  __  ______
 72
    65
 73
     6
 40
12.7
 49
6.35
 74
     0
 49
-1.27
 74
     0
 49
1.27
 74
     0
 49
-1.27
 74
     0
 49
1.27
 74
     0
 49
-1.27
 74
     0
  0
LTYPE
  5
70
330
5
100
AcDbSymbolTableRecord
100
AcDbLinetypeTableRecord
  2
CENTER
 70
     0
  3
Center ____ _ ____ _ ____ _ ____ _ ____ _ ____
 72
    65
 73
     4
 40
10.16
 49
6.35
 74
     0
 49
-1.27
 74
     0
 49
1.27
 74
     0
 49
-1.27
 74
     0
  0
LTYPE
  5
71
330
5
100
AcDbSymbolTableRecord
100
AcDbLinetypeTableRecord
  2
CENTERX2
 70
     0
  3
Center (2x) ________  __  ________  __  _____
 72
    65
 73
     4
 40
20.32
 49
12.7
 74
     0
 49
-2.54
 74
     0
 49
2.54
 74
     0
 49
-2.54
 74
     0
  0
LTYPE
  5
72
330
5
100
AcDbSymbolTableRecord
100
AcDbLinetypeTableRecord
  2
DOT2
 70
     0
  3
Dot (.5x) ........................................
 72
    65
 73
     2
 40
0.635
 49
0.0
 74
     0
 49
-0.635
 74
     0
  0
ENDTAB
  0
TABLE
  2
LAYER
  5
2
330
0
100
AcDbSymbolTable
 70
    17
  0
LAYER
  5
10
330
2
100
AcDbSymbolTableRecord
100
AcDbLayerTableRecord
  2
0
 70
     0
 62
     7
  6
Continuous
370
    -3
390
F
  0
LAYER
  5
73
330
2
100
AcDbSymbolTableRecord
100
AcDbLayerTableRecord
  2
FORMAT
 70
     0
 62
     7
  6
Continuous
370
    -3
390
F
  0
LAYER
  5
74
330
2
100
AcDbSymbolTableRecord
100
AcDbLayerTableRecord
  2
YARDIMCI_GEOMETRI
 70
     0
 62
    -6
  6
Continuous
290
     0
370
    -3
390
F
  0
LAYER
  5
75
330
2
100
AcDbSymbolTableRecord
100
AcDbLayerTableRecord
  2
SAYFA_CERCEVESI
 70
     0
 62
     7
  6
Continuous
370
    25
390
F
  0
LAYER
  5
76
330
2
100
AcDbSymbolTableRecord
100
AcDbLayerTableRecord
  2
ANTET
 70
     0
 62
     7
  6
Continuous
370
    -3
390
F
  0
LAYER
  5
77
330
2
100
AcDbSymbolTableRecord
100
AcDbLayerTableRecord
  2
OLCU
 70
     0
 62
   150
  6
Continuous
370
    -3
390
F
  0
LAYER
  5
78
330
2
100
AcDbSymbolTableRecord
100
AcDbLayerTableRecord
  2
METIN
 70
     0
 62
    96
  6
Continuous
370
    -3
390
F
  0
LAYER
  5
79
330
2
100
AcDbSymbolTableRecord
100
AcDbLayerTableRecord
  2
BALON
 70
     0
 62
     5
  6
Continuous
370
    -3
390
F
  0
LAYER
  5
7A
330
2
100
AcDbSymbolTableRecord
100
AcDbLayerTableRecord
  2
VURGU
 70
     0
 62
     7
  6
Continuous
370
    -3
390
F
  0
LAYER
  5
7B
330
2
100
AcDbSymbolTableRecord
100
AcDbLayerTableRecord
  2
SILIK
 70
     0
 62
     7
  6
Continuous
370
    -3
390
F
  0
LAYER
  5
7C
330
2
100
AcDbSymbolTableRecord
100
AcDbLayerTableRecord
  2
MODEL
 70
     0
 62
     7
  6
Continuous
370
    -3
390
F
  0
LAYER
  5
7D
330
2
100
AcDbSymbolTableRecord
100
AcDbLayerTableRecord
  2
DETAYLANDıRMA
 70
     0
 62
   190
  6
Continuous
370
    -3
390
F
  0
LAYER
  5
7E
330
2
100
AcDbSymbolTableRecord
100
AcDbLayerTableRecord
  2
TOLERANS
 70
     0
 62
   230
  6
Continuous
370
    -3
390
F
  0
LAYER
  5
7F
330
2
100
AcDbSymbolTableRecord
100
AcDbLayerTableRecord
  2
MERKEZ_CIZGILERI
 70
     0
 62
    30
  6
Continuous
370
    -3
390
F
  0
LAYER
  5
80
330
2
100
AcDbSymbolTableRecord
100
AcDbLayerTableRecord
  2
KESIT-DETAY_CIZGILERI
 70
     0
 62
     7
  6
Continuous
370
    -3
390
F
  0
LAYER
  5
81
330
2
100
AcDbSymbolTableRecord
100
AcDbLayerTableRecord
  2
\U+041E\U+0421\U+0415\U+0412\U+042B\U+0415
 70
     0
 62
     7
  6
Continuous
370
    -3
390
F
  0
LAYER
  5
82
330
2
100
AcDbSymbolTableRecord
100
AcDbLayerTableRecord
  2
\U+0412\U+041E\U+0414\U+042F\U+041D\U+042B\U+0415_\U+0417\U+041D\U+0410\U+041A\U+0418
 70
     0
 62
    11
  6
Continuous
370
    -3
390
F
  0
ENDTAB
  0
TABLE
  2
STYLE
  5
3
330
0
100
AcDbSymbolTable
 70
     1
  0
STYLE
  5
11
330
3
100
AcDbSymbolTableRecord
100
AcDbTextStyleTableRecord
  2
Standard
 70
     0
 40
0.0
 41
1.0
 50
0.0
 71
     0
 42
3.5
  3
txt
  4

  0
ENDTAB
  0
TABLE
  2
VIEW
  5
6
330
0
100
AcDbSymbolTable
 70
     0
  0
ENDTAB
  0
TABLE
  2
UCS
  5
7
330
0
100
AcDbSymbolTable
 70
     0
  0
ENDTAB
  0
TABLE
  2
APPID
  5
9
330
0
100
AcDbSymbolTable
 70
     1
  0
APPID
  5
12
330
9
100
AcDbSymbolTableRecord
100
AcDbRegAppTableRecord
  2
ACAD
 70
     0
  0
ENDTAB
  0
TABLE
  2
DIMSTYLE
  5
A
330
0
100
AcDbSymbolTable
 70
     1
100
AcDbDimStyleTable
  0
DIMSTYLE
105
27
330
A
100
AcDbSymbolTableRecord
100
AcDbDimStyleTableRecord
  2
ISO-25
 70
     0
 41
2.5
 42
0.625
 43
3.75
 44
1.25
 73
     0
 74
     0
 77
     1
 78
     8
140
2.5
141
2.5
143
0.0393700787
147
0.625
171
     3
172
     1
178
     0
271
     2
272
     2
274
     3
278
    44
283
     0
284
     8
340
11
  0
ENDTAB
  0
TABLE
  2
BLOCK_RECORD
  5
1
330
0
100
AcDbSymbolTable
 70
     2
  0
BLOCK_RECORD
  5
1F
330
1
100
AcDbSymbolTableRecord
100
AcDbBlockTableRecord
  2
*Model_Space
340
22
  0
BLOCK_RECORD
  5
1B
330
1
100
AcDbSymbolTableRecord
100
AcDbBlockTableRecord
  2
*Paper_Space
340
1E
  0
BLOCK_RECORD
  5
23
330
1
100
AcDbSymbolTableRecord
100
AcDbBlockTableRecord
  2
*Paper_Space0
340
26
  0
BLOCK_RECORD
  5
8C
330
1
100
AcDbSymbolTableRecord
100
AcDbBlockTableRecord
  2
SW_CENTERMARKSYMBOL_0
340
0
102
{BLKREFS
331
97
102
}
  0
ENDTAB
  0
ENDSEC
  0
SECTION
  2
BLOCKS
  0
BLOCK
  5
20
330
1F
100
AcDbEntity
  8
0
100
AcDbBlockBegin
  2
*Model_Space
 70
     0
 10
0.0
 20
0.0
 30
0.0
  3
*Model_Space
  1

  0
ENDBLK
  5
21
330
1F
100
AcDbEntity
  8
0
100
AcDbBlockEnd
  0
BLOCK
  5
1C
330
1B
100
AcDbEntity
 67
     1
  8
0
100
AcDbBlockBegin
  2
*Paper_Space
 70
     0
 10
0.0
 20
0.0
 30
0.0
  3
*Paper_Space
  1

  0
ENDBLK
  5
1D
330
1B
100
AcDbEntity
 67
     1
  8
0
100
AcDbBlockEnd
  0
BLOCK
  5
24
330
23
100
AcDbEntity
  8
0
100
AcDbBlockBegin
  2
*Paper_Space0
 70
     0
 10
0.0
 20
0.0
 30
0.0
  3
*Paper_Space0
  1

  0
ENDBLK
  5
25
330
23
100
AcDbEntity
  8
0
100
AcDbBlockEnd
  0
BLOCK
  5
8D
330
8C
100
AcDbEntity
  8
0
100
AcDbBlockBegin
  2
SW_CENTERMARKSYMBOL_0
 70
     0
 10
0.0
 20
0.0
 30
0.0
  3
SW_CENTERMARKSYMBOL_0
  1

  0
LINE
  5
8F
330
8C
100
AcDbEntity
  8
FORMAT
 62
     0
100
AcDbLine
 10
0.0
 20
0.0
 30
0.0
 11
0.0
 21
2.5
 31
0.0
  0
LINE
  5
90
330
8C
100
AcDbEntity
  8
FORMAT
 62
     0
100
AcDbLine
 10
0.0
 20
0.0
 30
0.0
 11
-2.5
 21
0.0
 31
0.0
  0
LINE
  5
91
330
8C
100
AcDbEntity
  8
FORMAT
 62
     0
100
AcDbLine
 10
0.0
 20
0.0
 30
0.0
 11
0.0
 21
-2.5
 31
0.0
  0
LINE
  5
92
330
8C
100
AcDbEntity
  8
FORMAT
 62
     0
100
AcDbLine
 10
0.0
 20
0.0
 30
0.0
 11
2.5
 21
0.0
 31
0.0
  0
LINE
  5
93
330
8C
100
AcDbEntity
  8
FORMAT
 62
     0
100
AcDbLine
 10
0.0
 20
5.0
 30
0.0
 11
0.0
 21
27.5
 31
0.0
  0
LINE
  5
94
330
8C
100
AcDbEntity
  8
FORMAT
 62
     0
100
AcDbLine
 10
-5.0
 20
0.0
 30
0.0
 11
-27.5
 21
0.0
 31
0.0
  0
LINE
  5
95
330
8C
100
AcDbEntity
  8
FORMAT
 62
     0
100
AcDbLine
 10
0.0
 20
-5.0
 30
0.0
 11
0.0
 21
-27.5
 31
0.0
  0
LINE
  5
96
330
8C
100
AcDbEntity
  8
FORMAT
 62
     0
100
AcDbLine
 10
5.0
 20
0.0
 30
0.0
 11
27.5
 21
0.0
 31
0.0
  0
ENDBLK
  5
8E
330
8C
100
AcDbEntity
  8
0
100
AcDbBlockEnd
  0
ENDSEC
  0
SECTION
  2
ENTITIES
  0
CIRCLE
  5
83
330
1F
100
AcDbEntity
  8
0
  6
Continuous
 62
     7
370
    25
100
AcDbCircle
 10
139.8323425481
 20
108.7440552885
 30
0.0
 40
20.40000000000001
  0
CIRCLE
  5
84
330
1F
100
AcDbEntity
  8
0
  6
Continuous
 62
     7
370
    25
100
AcDbCircle
 10
139.8323425481
 20
108.7440552885
 30
0.0
 40
25.00000000000001
  0
CIRCLE
  5
85
330
1F
100
AcDbEntity
  8
0
  6
Continuous
 62
     7
370
    25
100
AcDbCircle
 10
139.8323425481
 20
108.7440552885
 30
0.0
 40
19.40000000000001
  0
LINE
  5
86
330
1F
100
AcDbEntity
  8
0
  6
Continuous
 62
     7
370
    25
100
AcDbLine
 10
139.8323425481
 20
71.2162877911
 30
0.0
 11
107.3323425481
 21
89.9801715398
 31
0.0
  0
LINE
  5
87
330
1F
100
AcDbEntity
  8
0
  6
Continuous
 62
     7
370
    25
100
AcDbLine
 10
107.3323425481
 20
89.9801715398
 30
0.0
 11
107.3323425481
 21
127.5079390371
 31
0.0
  0
LINE
  5
88
330
1F
100
AcDbEntity
  8
0
  6
Continuous
 62
     7
370
    25
100
AcDbLine
 10
107.3323425481
 20
127.5079390371
 30
0.0
 11
139.8323425481
 21
146.2718227858
 31
0.0
  0
LINE
  5
89
330
1F
100
AcDbEntity
  8
0
  6
Continuous
 62
     7
370
    25
100
AcDbLine
 10
139.8323425481
 20
146.2718227858
 30
0.0
 11
172.3323425481
 21
127.5079390371
 31
0.0
  0
LINE
  5
8A
330
1F
100
AcDbEntity
  8
0
  6
Continuous
 62
     7
370
    25
100
AcDbLine
 10
172.3323425481
 20
127.5079390371
 30
0.0
 11
172.3323425481
 21
89.9801715398
 31
0.0
  0
LINE
  5
8B
330
1F
100
AcDbEntity
  8
0
  6
Continuous
 62
     7
370
    25
100
AcDbLine
 10
172.3323425481
 20
89.9801715398
 30
0.0
 11
139.8323425481
 21
71.2162877911
 31
0.0
  0
INSERT
  5
97
330
1F
100
AcDbEntity
  8
FORMAT
 62
     7
100
AcDbBlockReference
  2
SW_CENTERMARKSYMBOL_0
 10
139.8323425481
 20
108.7440552885
 30
0.0
  0
LINE
  5
98
330
1F
100
AcDbEntity
  8
0
  6
Continuous
 62
     7
370
    25
100
AcDbLine
 10
171.5823425481
 20
206.3085163803
 30
0.0
 11
171.5823425481
 21
224.3085163803
 31
0.0
  0
LINE
  5
99
330
1F
100
AcDbEntity
  8
0
  6
Continuous
 62
     7
370
    25
100
AcDbLine
 10
108.0823425481
 20
224.3085163803
 30
0.0
 11
108.0823425481
 21
206.3085163803
 31
0.0
  0
LINE
  5
9A
330
1F
100
AcDbEntity
  8
0
  6
Continuous
 62
     7
370
    25
100
AcDbLine
 10
164.8323425481
 20
242.8085163803
 30
0.0
 11
164.8323425481
 21
292.3085163803
 31
0.0
  0
LINE
  5
9B
330
1F
100
AcDbEntity
  8
0
  6
Continuous
 62
     7
370
    25
100
AcDbLine
 10
114.8323425481
 20
292.3085163803
 30
0.0
 11
114.8323425481
 21
242.8085163803
 31
0.0
  0
LINE
  5
9C
330
1F
100
AcDbEntity
  8
0
  6
Continuous
 62
     7
370
    25
100
AcDbLine
 10
171.5823425481
 20
206.3085163803
 30
0.0
 11
108.0823425481
 21
206.3085163803
 31
0.0
  0
LINE
  5
9D
330
1F
100
AcDbEntity
  8
0
  6
Continuous
 62
     7
370
    25
100
AcDbLine
 10
139.8323425481
 20
242.8085163803
 30
0.0
 11
139.8323425481
 21
224.3085163803
 31
0.0
  0
LINE
  5
9E
330
1F
100
AcDbEntity
  8
0
  6
Continuous
 62
     7
370
    25
100
AcDbLine
 10
107.3323425481
 20
224.3085163803
 30
0.0
 11
139.8323425481
 21
224.3085163803
 31
0.0
  0
LINE
  5
9F
330
1F
100
AcDbEntity
  8
0
  6
Continuous
 62
     7
370
    25
100
AcDbLine
 10
107.3323425481
 20
242.8085163803
 30
0.0
 11
107.3323425481
 21
224.3085163803
 31
0.0
  0
LINE
  5
A0
330
1F
100
AcDbEntity
  8
0
  6
Continuous
 62
     7
370
    25
100
AcDbLine
 10
139.8323425481
 20
242.8085163803
 30
0.0
 11
107.3323425481
 21
242.8085163803
 31
0.0
  0
LINE
  5
A1
330
1F
100
AcDbEntity
  8
0
  6
Continuous
 62
     7
370
    25
100
AcDbLine
 10
172.3323425481
 20
242.8085163803
 30
0.0
 11
172.3323425481
 21
224.3085163803
 31
0.0
  0
LINE
  5
A2
330
1F
100
AcDbEntity
  8
0
  6
Continuous
 62
     7
370
    25
100
AcDbLine
 10
139.8323425481
 20
224.3085163803
 30
0.0
 11
172.3323425481
 21
224.3085163803
 31
0.0
  0
LINE
  5
A3
330
1F
100
AcDbEntity
  8
0
  6
Continuous
 62
     7
370
    25
100
AcDbLine
 10
172.3323425481
 20
242.8085163803
 30
0.0
 11
139.8323425481
 21
242.8085163803
 31
0.0
  0
LINE
  5
A4
330
1F
100
AcDbEntity
  8
0
  6
Continuous
 62
     7
370
    25
100
AcDbLine
 10
164.8323425481
 20
292.3085163803
 30
0.0
 11
114.8323425481
 21
292.3085163803
 31
0.0
  0
LINE
  5
A5
330
1F
100
AcDbEntity
  8
0
  6
Continuous
 62
     7
370
    25
100
AcDbLine
 10
243.021795464
 20
76.9940552885
 30
0.0
 11
261.021795464
 21
76.9940552885
 31
0.0
  0
LINE
  5
A6
330
1F
100
AcDbEntity
  8
0
  6
Continuous
 62
     7
370
    25
100
AcDbLine
 10
261.021795464
 20
140.4940552885
 30
0.0
 11
243.021795464
 21
140.4940552885
 31
0.0
  0
LINE
  5
A7
330
1F
100
AcDbEntity
  8
0
  6
Continuous
 62
     7
370
    25
100
AcDbLine
 10
279.521795464
 20
83.7440552885
 30
0.0
 11
329.021795464
 21
83.7440552885
 31
0.0
  0
LINE
  5
A8
330
1F
100
AcDbEntity
  8
0
  6
Continuous
 62
     7
370
    25
100
AcDbLine
 10
329.021795464
 20
133.7440552885
 30
0.0
 11
279.521795464
 21
133.7440552885
 31
0.0
  0
LINE
  5
A9
330
1F
100
AcDbEntity
  8
0
  6
Continuous
 62
     7
370
    25
100
AcDbLine
 10
243.021795464
 20
108.7440552885
 30
0.0
 11
243.021795464
 21
140.4940552885
 31
0.0
  0
LINE
  5
AA
330
1F
100
AcDbEntity
  8
0
  6
Continuous
 62
     7
370
    25
100
AcDbLine
 10
243.021795464
 20
76.9940552885
 30
0.0
 11
243.021795464
 21
108.7440552885
 31
0.0
  0
LINE
  5
AB
330
1F
100
AcDbEntity
  8
0
  6
Continuous
 62
     7
370
    25
100
AcDbLine
 10
279.521795464
 20
71.2162877911
 30
0.0
 11
261.021795464
 21
71.2162877911
 31
0.0
  0
LINE
  5
AC
330
1F
100
AcDbEntity
  8
0
  6
Continuous
 62
     7
370
    25
100
AcDbLine
 10
261.021795464
 20
89.9801715398
 30
0.0
 11
261.021795464
 21
71.2162877911
 31
0.0
  0
LINE
  5
AD
330
1F
100
AcDbEntity
  8
0
  6
Continuous
 62
     7
370
    25
100
AcDbLine
 10
279.521795464
 20
89.9801715398
 30
0.0
 11
261.021795464
 21
89.9801715398
 31
0.0
  0
LINE
  5
AE
330
1F
100
AcDbEntity
  8
0
  6
Continuous
 62
     7
370
    25
100
AcDbLine
 10
279.521795464
 20
71.2162877911
 30
0.0
 11
279.521795464
 21
89.9801715398
 31
0.0
  0
LINE
  5
AF
330
1F
100
AcDbEntity
  8
0
  6
Continuous
 62
     7
370
    25
100
AcDbLine
 10
279.521795464
 20
127.5079390371
 30
0.0
 11
261.021795464
 21
127.5079390371
 31
0.0
  0
LINE
  5
B0
330
1F
100
AcDbEntity
  8
0
  6
Continuous
 62
     7
370
    25
100
AcDbLine
 10
279.521795464
 20
89.9801715398
 30
0.0
 11
279.521795464
 21
127.5079390371
 31
0.0
  0
LINE
  5
B1
330
1F
100
AcDbEntity
  8
0
  6
Continuous
 62
     7
370
    25
100
AcDbLine
 10
261.021795464
 20
127.5079390371
 30
0.0
 11
261.021795464
 21
89.9801715398
 31
0.0
  0
LINE
  5
B2
330
1F
100
AcDbEntity
  8
0
  6
Continuous
 62
     7
370
    25
100
AcDbLine
 10
279.521795464
 20
146.2718227858
 30
0.0
 11
261.021795464
 21
146.2718227858
 31
0.0
  0
LINE
  5
B3
330
1F
100
AcDbEntity
  8
0
  6
Continuous
 62
     7
370
    25
100
AcDbLine
 10
279.521795464
 20
127.5079390371
 30
0.0
 11
279.521795464
 21
146.2718227858
 31
0.0
  0
LINE
  5
B4
330
1F
100
AcDbEntity
  8
0
  6
Continuous
 62
     7
370
    25
100
AcDbLine
 10
261.021795464
 20
146.2718227858
 30
0.0
 11
261.021795464
 21
127.5079390371
 31
0.0
  0
LINE
  5
B5
330
1F
100
AcDbEntity
  8
0
  6
Continuous
 62
     7
370
    25
100
AcDbLine
 10
329.021795464
 20
108.7440552885
 30
0.0
 11
329.021795464
 21
133.7440552885
 31
0.0
  0
LINE
  5
B6
330
1F
100
AcDbEntity
  8
0
  6
Continuous
 62
     7
370
    25
100
AcDbLine
 10
329.021795464
 20
83.7440552885
 30
0.0
 11
329.021795464
 21
108.7440552885
 31
0.0
  0
LINE
  5
B7
330
1F
100
AcDbEntity
  8
0
  6
Continuous
 62
     7
370
    25
100
AcDbLine
 10
37.5527931333
 20
140.4940552885
 30
0.0
 11
19.5527931333
 21
140.4940552885
 31
0.0
  0
LINE
  5
B8
330
1F
100
AcDbEntity
  8
0
  6
Continuous
 62
     7
370
    25
100
AcDbLine
 10
19.5527931333
 20
76.9940552885
 30
0.0
 11
37.5527931333
 21
76.9940552885
 31
0.0
  0
LINE
  5
B9
330
1F
100
AcDbEntity
  8
0
  6
Continuous
 62
     7
370
    25
100
AcDbLine
 10
1.0527931333
 20
133.7440552885
 30
0.0
 11
-48.4472068667
 21
133.7440552885
 31
0.0
  0
LINE
  5
BA
330
1F
100
AcDbEntity
  8
0
  6
Continuous
 62
     7
370
    25
100
AcDbLine
 10
-48.4472068667
 20
83.7440552885
 30
0.0
 11
1.0527931333
 21
83.7440552885
 31
0.0
  0
LINE
  5
BB
330
1F
100
AcDbEntity
  8
0
  6
Continuous
 62
     7
370
    25
100
AcDbLine
 10
37.5527931333
 20
140.4940552885
 30
0.0
 11
37.5527931333
 21
76.9940552885
 31
0.0
  0
LINE
  5
BC
330
1F
100
AcDbEntity
  8
0
  6
Continuous
 62
     7
370
    25
100
AcDbLine
 10
1.0527931333
 20
146.2718227858
 30
0.0
 11
19.5527931333
 21
146.2718227858
 31
0.0
  0
LINE
  5
BD
330
1F
100
AcDbEntity
  8
0
  6
Continuous
 62
     7
370
    25
100
AcDbLine
 10
1.0527931333
 20
127.5079390371
 30
0.0
 11
19.5527931333
 21
127.5079390371
 31
0.0
  0
LINE
  5
BE
330
1F
100
AcDbEntity
  8
0
  6
Continuous
 62
     7
370
    25
100
AcDbLine
 10
1.0527931333
 20
146.2718227858
 30
0.0
 11
1.0527931333
 21
127.5079390371
 31
0.0
  0
LINE
  5
BF
330
1F
100
AcDbEntity
  8
0
  6
Continuous
 62
     7
370
    25
100
AcDbLine
 10
19.5527931333
 20
127.5079390371
 30
0.0
 11
19.5527931333
 21
146.2718227858
 31
0.0
  0
LINE
  5
C0
330
1F
100
AcDbEntity
  8
0
  6
Continuous
 62
     7
370
    25
100
AcDbLine
 10
1.0527931333
 20
89.9801715398
 30
0.0
 11
19.5527931333
 21
89.9801715398
 31
0.0
  0
LINE
  5
C1
330
1F
100
AcDbEntity
  8
0
  6
Continuous
 62
     7
370
    25
100
AcDbLine
 10
1.0527931333
 20
71.2162877911
 30
0.0
 11
19.5527931333
 21
71.2162877911
 31
0.0
  0
LINE
  5
C2
330
1F
100
AcDbEntity
  8
0
  6
Continuous
 62
     7
370
    25
100
AcDbLine
 10
1.0527931333
 20
89.9801715398
 30
0.0
 11
1.0527931333
 21
71.2162877911
 31
0.0
  0
LINE
  5
C3
330
1F
100
AcDbEntity
  8
0
  6
Continuous
 62
     7
370
    25
100
AcDbLine
 10
19.5527931333
 20
71.2162877911
 30
0.0
 11
19.5527931333
 21
89.9801715398
 31
0.0
  0
LINE
  5
C4
330
1F
100
AcDbEntity
  8
0
  6
Continuous
 62
     7
370
    25
100
AcDbLine
 10
1.0527931333
 20
127.5079390371
 30
0.0
 11
1.0527931333
 21
89.9801715398
 31
0.0
  0
LINE
  5
C5
330
1F
100
AcDbEntity
  8
0
  6
Continuous
 62
     7
370
    25
100
AcDbLine
 10
19.5527931333
 20
89.9801715398
 30
0.0
 11
19.5527931333
 21
127.5079390371
 31
0.0
  0
LINE
  5
C6
330
1F
100
AcDbEntity
  8
0
  6
Continuous
 62
     7
370
    25
100
AcDbLine
 10
-48.4472068667
 20
133.7440552885
 30
0.0
 11
-48.4472068667
 21
83.7440552885
 31
0.0
  0
LINE
  5
C7
330
1F
100
AcDbEntity
  8
0
  6
Continuous
 62
     7
370
    25
100
AcDbLine
 10
322.9727081076
 20
-3.8753087409
 30
0.0
 11
317.3520465542
 21
-0.6305698923
 31
0.0
  0
LINE
  5
C8
330
1F
100
AcDbEntity
  8
0
  6
Continuous
 62
     7
370
    25
100
AcDbLine
 10
282.0363093269
 20
-53.5647268275
 30
0.0
 11
291.2252883464
 21
-58.8694115021
 31
0.0
  0
LINE
  5
C9
330
1F
100
AcDbEntity
  8
0
  6
Continuous
 62
     7
370
    25
100
AcDbLine
 10
293.7885848716
 20
5.1783094788
 30
0.0
 11
258.7867992029
 21
25.3844102464
 31
0.0
  0
LINE
  5
CA
330
1F
100
AcDbEntity
  8
0
  6
Continuous
 62
     7
370
    25
100
AcDbLine
 10
233.788830887
 20
-17.9180328726
 30
0.0
 11
268.7906165557
 21
-38.1241336402
 31
0.0
  0
LWPOLYLINE
  5
CB
330
1F
100
AcDbEntity
  8
0
  6
Continuous
 62
     7
370
    25
100
AcDbPolyline
 90
       61
 70
   128
 43
0.0
 10
322.9727081076
 20
-3.8753087409
 10
323.5951483917
 20
-4.2639851391
 10
324.3822640817
 20
-4.8483536602
 10
325.1203884769
 20
-5.5079073593
 10
325.8074292835
 20
-6.2407766599
 10
326.4414390096
 20
-7.0448841643
 10
327.0206204859
 20
-7.9179505424
 10
327.5433319594
 20
-8.8575009926
 10
328.0080917478
 20
-9.8608722572
 10
328.4135824389
 20
-10.9252201714
 10
328.7586546253
 20
-12.0475277252
 10
329.0423301624
 20
-13.224613616
 10
329.263804941
 20
-14.453141266
 10
329.4224511669
 20
-15.72962828
 10
329.5178191401
 20
-17.050456317
 10
329.5496385296
 20
-18.4118813463
 10
329.5178191401
 20
-19.8100442608
 10
329.4224511669
 20
-21.2409818159
 10
329.263804941
 20
-22.7006378635
 10
329.0423301624
 20
-24.1848748499
 10
328.7586546253
 20
-25.6894855443
 10
328.4135824389
 20
-27.2102049641
 10
328.0080917478
 20
-28.7427224649
 10
327.5433319594
 20
-30.2826939593
 10
327.0206204859
 20
-31.8257542308
 10
326.4414390096
 20
-33.3675293075
 10
325.8074292835
 20
-34.9036488604
 10
325.1203884769
 20
-36.4297585917
 10
324.3822640817
 20
-37.9415325775
 10
323.5951483917
 20
-39.4346855303
 10
322.7612725718
 20
-40.9049849458
 10
321.8830003336
 20
-42.3482631005
 10
320.9628212352
 20
-43.7604288657
 10
320.0033436242
 20
-45.1374793042
 10
319.0072872442
 20
-46.4755110168
 10
317.9774755252
 20
-47.7707312073
 10
316.9168275803
 20
-49.0194684333
 10
315.8283499315
 20
-50.2181830135
 10
314.7151279869
 20
-51.3634770612
 10
313.580317295
 20
-52.452104116
 10
312.4271346
 20
-53.4809783462
 10
311.2588487236
 20
-54.447183296
 10
310.078771299
 20
-55.3479801525
 10
308.8902473839
 20
-56.1808155091
 10
307.6966459784
 20
-56.9433286036
 10
306.5013504755
 20
-57.6333580098
 10
305.30774907
 20
-58.2489477643
 10
304.1192251549
 20
-58.788352911
 10
302.9391477303
 20
-59.2500444476
 10
301.7708618539
 20
-59.6327136591
 10
300.617679159
 20
-59.9352758281
 10
299.4828684671
 20
-60.1568733093
 10
298.3696465224
 20
-60.2968779605
 10
297.2811688736
 20
-60.3548929234
 10
296.2205209288
 20
-60.3307537482
 10
295.1907092098
 20
-60.22452886
 10
294.1946528297
 20
-60.0365193648
 10
293.2351752188
 20
-59.767258196
 10
292.3149961204
 20
-59.4175086037
 10
291.4367238822
 20
-58.9882619909
 10
291.2252883464
 20
-58.8694115021
  0
LWPOLYLINE
  5
CC
330
1F
100
AcDbEntity
  8
0
  6
Continuous
 62
     7
370
    25
100
AcDbPolyline
 90
       95
 70
   128
 43
0.0
 10
231.8628367087
 20
-4.5941740537
 10
231.8950494362
 20
-3.4629842497
 10
231.9915437488
 20
-2.2996545904
 10
232.1518886795
 20
-1.1093807886
 10
232.3753680888
 20
0.1025211041
 10
232.6609838636
 20
1.3306384395
 10
233.0074603744
 20
2.5694861476
 10
233.413250173
 20
3.8135312337
 10
233.8765409037
 20
5.0572174905
 10
234.3952633975
 20
6.2949903132
 10
234.967100914
 20
7.521321508
 10
235.589499488
 20
8.7307339821
 10
236.2596793362
 20
9.9178262056
 10
236.9746472729
 20
11.0772963367
 10
237.7312100777
 20
12.2039659002
 10
238.5259887574
 20
13.2928029163
 10
239.3554336376
 20
14.3389443747
 10
240.2158402159
 20
15.3377179536
 10
241.1033657079
 20
16.2846628877
 10
242.0140462091
 20
17.1755498911
 10
242.9438143994
 20
18.0064000463
 10
243.8885177084
 20
18.7735025746
 10
244.8439368617
 20
19.47343141
 10
245.8058047255
 20
20.1030605003
 10
246.7698253644
 20
20.6595777694
 10
247.7316932281
 20
21.1404976758
 10
248.6871123815
 20
21.5436723146
 10
249.6318156904
 20
21.86730101
 10
250.5615838807
 20
22.1099383576
 10
251.472264382
 20
22.2705006801
 10
252.3597898739
 20
22.3482708673
 10
253.2201964523
 20
22.3429015786
 10
254.0496413324
 20
22.2544167945
 10
254.8444200121
 20
22.0832117097
 10
255.6009828169
 20
21.8300509674
 10
256.3159507536
 20
21.4960652451
 10
256.9861306019
 20
21.0827462042
 10
257.6085291758
 20
20.5919398276
 10
258.1803666923
 20
20.025838176
 10
258.6990891862
 20
19.3869695967
 10
259.1623799169
 20
18.6781874317
 10
259.5681697155
 20
17.9026572745
 10
259.9146462263
 20
17.0638428308
 10
260.200262001
 20
16.1654904497
 10
260.4237414104
 20
15.2116123909
 10
260.5840863411
 20
14.2064689054
 10
260.6805806536
 20
13.154549208
 10
260.7127933811
 20
12.0605514275
 10
260.6805806536
 20
10.9293616234
 10
260.5840863411
 20
9.7660319642
 10
260.4237414104
 20
8.5757581624
 10
260.200262001
 20
7.3638562697
 10
259.9146462263
 20
6.1357389343
 10
259.5681697155
 20
4.8968912262
 10
259.1623799169
 20
3.6528461401
 10
258.6990891862
 20
2.4091598833
 10
258.1803666923
 20
1.1713870605
 10
257.6085291758
 20
-0.0549441343
 10
256.9861306019
 20
-1.2643566083
 10
256.3159507536
 20
-2.4514488319
 10
255.6009828169
 20
-3.6109189629
 10
254.8444200121
 20
-4.7375885264
 10
254.0496413324
 20
-5.8264255426
 10
253.2201964523
 20
-6.8725670009
 10
252.3597898739
 20
-7.8713405798
 10
251.472264382
 20
-8.8182855139
 10
250.5615838807
 20
-9.7091725174
 10
249.6318156904
 20
-10.5400226725
 10
248.6871123815
 20
-11.3071252008
 10
247.7316932281
 20
-12.0070540362
 10
246.7698253644
 20
-12.6366831266
 10
245.8058047255
 20
-13.1932003956
 10
244.8439368617
 20
-13.674120302
 10
243.8885177084
 20
-14.0772949408
 10
242.9438143994
 20
-14.4009236362
 10
242.0140462091
 20
-14.6435609838
 10
241.1033657079
 20
-14.8041233063
 10
240.2158402159
 20
-14.8818934935
 10
239.3554336376
 20
-14.8765242048
 10
238.5259887574
 20
-14.7880394208
 10
237.7312100777
 20
-14.6168343359
 10
236.9746472729
 20
-14.3636735936
 10
236.2596793362
 20
-14.0296878714
 10
235.589499488
 20
-13.6163688304
 10
234.967100914
 20
-13.1255624539
 10
234.3952633975
 20
-12.5594608022
 10
233.8765409037
 20
-11.9205922229
 10
233.413250173
 20
-11.211810058
 10
233.0074603744
 20
-10.4362799007
 10
232.6609838636
 20
-9.597465457
 10
232.3753680888
 20
-8.6991130759
 10
232.1518886795
 20
-7.7452350171
 10
231.9915437488
 20
-6.7400915316
 10
231.8950494362
 20
-5.6881718342
 10
231.8628367087
 20
-4.5941740537
  0
LWPOLYLINE
  5
CD
330
1F
100
AcDbEntity
  8
0
  6
Continuous
 62
     7
370
    25
100
AcDbPolyline
 90
      105
 70
   128
 43
0.0
 10
228.6101455153
 20
-6.4719127109
 10
228.6423974648
 20
-5.2207563741
 10
228.7390356295
 20
-3.9369280628
 10
228.8997073871
 20
-2.6251123273
 10
229.1238264639
 20
-1.2900958409
 10
229.4105750737
 20
0.0632500659
 10
229.7589069019
 20
1.4299871808
 10
230.1675509233
 20
2.8051284282
 10
230.6350160404
 20
4.1836560669
 10
231.1595965235
 20
5.5605399989
 10
231.7393782354
 20
6.9307561242
 10
232.3722456155
 20
8.2893046726
 10
233.0558893994
 20
9.631228448
 10
233.7878150449
 20
10.9516309158
 10
234.5653518349
 20
12.2456940708
 10
235.3856626219
 20
13.5086960168
 10
236.2457541808
 20
14.7360281966
 10
237.1424881307
 20
15.9232122083
 10
238.0725923868
 20
17.0659161462
 10
239.0326730994
 20
18.1599704074
 10
240.0192270382
 20
19.2013829067
 10
241.0286543748
 20
20.1863536427
 10
242.0572718184
 20
21.1112885641
 10
243.1013260554
 20
21.9728126837
 10
244.1570074452
 20
22.7677823933
 10
245.2204639208
 20
23.4932969347
 10
246.2878150449
 20
24.146708984
 10
247.3551661691
 20
24.7256343116
 10
248.4186226447
 20
25.2279604816
 10
249.4743040345
 20
25.6518545604
 10
250.5183582715
 20
25.9957698044
 10
251.546975715
 20
26.2584513042
 10
252.5564030517
 20
26.4389405635
 10
253.5429569905
 20
26.5365789966
 10
254.5030377031
 20
26.5510103314
 10
255.4331419592
 20
26.4821819095
 10
256.3298759091
 20
26.3303448784
 10
257.189967468
 20
26.096053275
 10
258.0102782549
 20
25.7801620038
 10
258.7878150449
 20
25.383823718
 10
259.5197406905
 20
24.9084846128
 10
260.2033844743
 20
24.3558791492
 10
260.8362518544
 20
23.7280237246
 10
261.4160335663
 20
23.0272093152
 10
261.9406140495
 20
22.255993117
 10
262.4080791665
 20
21.4171892142
 10
262.816723188
 20
20.5138583112
 10
263.1650550161
 20
19.5492965645
 10
263.4518036259
 20
18.5270235554
 10
263.6759227027
 20
17.4507694472
 10
263.8365944604
 20
16.3244613745
 10
263.9332326251
 20
15.1522091132
 10
263.9654845746
 20
13.9382900847
 10
263.9332326251
 20
12.6871337479
 10
263.8365944604
 20
11.4033054366
 10
263.6759227027
 20
10.0914897011
 10
263.4518036259
 20
8.7564732147
 10
263.1650550161
 20
7.4031273079
 10
262.816723188
 20
6.036390193
 10
262.4080791665
 20
4.6612489455
 10
261.9406140495
 20
3.2827213069
 10
261.4160335663
 20
1.9058373749
 10
260.8362518544
 20
0.5356212496
 10
260.2033844743
 20
-0.8229272989
 10
259.5197406905
 20
-2.1648510742
 10
258.7878150449
 20
-3.485253542
 10
258.0102782549
 20
-4.779316697
 10
257.189967468
 20
-6.042318643
 10
256.3298759091
 20
-7.2696508229
 10
255.4331419592
 20
-8.4568348346
 10
254.5030377031
 20
-9.5995387724
 10
253.5429569905
 20
-10.6935930336
 10
252.5564030517
 20
-11.7350055329
 10
251.546975715
 20
-12.719976269
 10
250.5183582715
 20
-13.6449111904
 10
249.4743040345
 20
-14.5064353099
 10
248.4186226447
 20
-15.3014050195
 10
247.3551661691
 20
-16.0269195609
 10
246.2878150449
 20
-16.6803316103
 10
245.2204639208
 20
-17.2592569378
 10
244.1570074452
 20
-17.7615831078
 10
243.1013260554
 20
-18.1854771866
 10
242.0572718184
 20
-18.5293924306
 10
241.0286543748
 20
-18.7920739304
 10
240.0192270382
 20
-18.9725631898
 10
239.0326730994
 20
-19.0702016228
 10
238.0725923868
 20
-19.0846329576
 10
237.1424881307
 20
-19.0158045357
 10
236.2457541808
 20
-18.8639675047
 10
235.3856626219
 20
-18.6296759012
 10
234.5653518349
 20
-18.3137846301
 10
233.7878150449
 20
-17.9174463442
 10
233.0558893994
 20
-17.442107239
 10
232.3722456155
 20
-16.8895017754
 10
231.7393782354
 20
-16.2616463508
 10
231.1595965235
 20
-15.5608319415
 10
230.6350160404
 20
-14.7896157433
 10
230.1675509233
 20
-13.9508118404
 10
229.7589069019
 20
-13.0474809374
 10
229.4105750737
 20
-12.0829191907
 10
229.1238264639
 20
-11.0606461817
 10
228.8997073871
 20
-9.9843920735
 10
228.7390356295
 20
-8.8580840007
 10
228.6423974648
 20
-7.6858317394
 10
228.6101455153
 20
-6.4719127109
  0
LWPOLYLINE
  5
CE
330
1F
100
AcDbEntity
  8
0
  6
Continuous
 62
     7
370
    25
100
AcDbPolyline
 90
       54
 70
   128
 43
0.0
 10
293.7885848716
 20
5.1783094788
 10
293.7896007137
 20
5.1777229503
 10
294.5215263592
 20
4.7023838452
 10
295.2051701431
 20
4.1497783816
 10
295.8380375232
 20
3.5219229569
 10
296.4178192351
 20
2.8211085476
 10
296.9423997182
 20
2.0498923494
 10
297.4098648353
 20
1.2110884466
 10
297.8185088567
 20
0.3077575436
 10
298.1668406849
 20
-0.6568042031
 10
298.4535892946
 20
-1.6790772122
 10
298.6777083715
 20
-2.7553313204
 10
298.8383801291
 20
-3.8816393931
 10
298.9350182938
 20
-5.0538916544
 10
298.9672702433
 20
-6.2678106829
 10
298.9350182938
 20
-7.5189670197
 10
298.8383801291
 20
-8.802795331
 10
298.6777083715
 20
-10.1146110665
 10
298.4535892946
 20
-11.4496275529
 10
298.1668406849
 20
-12.8029734598
 10
297.8185088567
 20
-14.1697105747
 10
297.4098648353
 20
-15.5448518221
 10
296.9423997182
 20
-16.9233794607
 10
296.4178192351
 20
-18.3002633928
 10
295.8380375232
 20
-19.670479518
 10
295.2051701431
 20
-21.0290280665
 10
294.5215263592
 20
-22.3709518418
 10
293.7896007137
 20
-23.6913543097
 10
293.0120639237
 20
-24.9854174646
 10
292.1917531367
 20
-26.2484194106
 10
291.3316615778
 20
-27.4757515905
 10
290.4349276279
 20
-28.6629356022
 10
289.5048233718
 20
-29.80563954
 10
288.5447426592
 20
-30.8996938013
 10
287.5581887204
 20
-31.9411063005
 10
286.5487613838
 20
-32.9260770366
 10
285.5201439402
 20
-33.851011958
 10
284.4760897032
 20
-34.7125360775
 10
283.4204083134
 20
-35.5075057871
 10
282.3569518378
 20
-36.2330203285
 10
281.2896007137
 20
-36.8864323779
 10
280.2222495895
 20
-37.4653577054
 10
279.1587931139
 20
-37.9676838754
 10
278.1031117241
 20
-38.3915779542
 10
277.0590574871
 20
-38.7354931982
 10
276.0304400435
 20
-38.998174698
 10
275.0210127069
 20
-39.1786639574
 10
274.0344587681
 20
-39.2763023904
 10
273.0743780555
 20
-39.2907337252
 10
272.1442737994
 20
-39.2219053034
 10
271.2475398495
 20
-39.0700682723
 10
270.3874482906
 20
-38.8357766688
 10
269.5671375036
 20
-38.5198853977
 10
268.7906165557
 20
-38.1241336402
  0
LWPOLYLINE
  5
CF
330
1F
100
AcDbEntity
  8
0
  6
Continuous
 62
     7
370
    25
100
AcDbPolyline
 90
       31
 70
   128
 43
0.0
 10
238.9339045206
 20
-8.6762146128
 10
238.9661172481
 20
-7.5450248088
 10
239.0626115607
 20
-6.3816951495
 10
239.2229564913
 20
-5.1914213477
 10
239.4464359007
 20
-3.979519455
 10
239.7320516755
 20
-2.7514021196
 10
240.0785281863
 20
-1.5125544115
 10
240.4843179849
 20
-0.2685093254
 10
240.9476087155
 20
0.9751769314
 10
241.4663312094
 20
2.2129497541
 10
242.0381687259
 20
3.4392809489
 10
242.6605672998
 20
4.6486934229
 10
243.3307471481
 20
5.8357856465
 10
244.0457150848
 20
6.9952557776
 10
244.8022778896
 20
8.1219253411
 10
245.5970565693
 20
9.2107623572
 10
246.4265014494
 20
10.2569038156
 10
247.2869080278
 20
11.2556773945
 10
248.1744335197
 20
12.2026223286
 10
249.085114021
 20
13.093509332
 10
250.0148822113
 20
13.9243594871
 10
250.9595855203
 20
14.6914620154
 10
251.9150046736
 20
15.3913908508
 10
252.8768725373
 20
16.0210199412
 10
253.8408931762
 20
16.5775372102
 10
254.80276104
 20
17.0584571167
 10
255.7581801933
 20
17.4616317555
 10
256.7028835023
 20
17.7852604509
 10
257.6326516926
 20
18.0278977985
 10
258.5433321938
 20
18.188460121
 10
259.3903313966
 20
18.2644637212
  0
ARC
  5
D0
330
1F
100
AcDbEntity
  8
0
  6
Continuous
 62
     7
370
    25
100
AcDbCircle
 10
252.5755507308
 20
-9.0111900454
 30
0.0
 40
13.64575831033839
100
AcDbArc
 50
178.5933646041
 51
205.4734238463
  0
LWPOLYLINE
  5
D1
330
1F
100
AcDbEntity
  8
0
  6
Continuous
 62
     7
370
    25
100
AcDbPolyline
 90
       31
 70
   128
 43
0.0
 10
240.348118083
 20
-8.6762146128
 10
240.3800976078
 20
-7.5767325432
 10
240.4758870789
 20
-6.4454539931
 10
240.6350398816
 20
-5.2876535054
 10
240.856813972
 20
-4.1087292803
 10
241.140175337
 20
-2.9141780069
 10
241.4838028151
 20
-1.7095692346
 10
241.8860942563
 20
-0.5005194055
 10
242.3451739923
 20
0.7073343318
 10
242.8589015813
 20
1.9083604058
 10
243.4248817883
 20
3.0969590784
 10
244.0404757522
 20
4.267588554
 10
244.7028132898
 20
5.4147908175
 10
245.4088062778
 20
6.5332170825
 10
246.1551630509
 20
7.6176527294
 10
246.9384037493
 20
8.6630416185
 10
247.7548765434
 20
9.6645096645
 10
248.6007746601
 20
10.6173875608
 10
249.4721541318
 20
11.5172325509
 10
250.3649521853
 20
12.3598491421
 10
251.2750061838
 20
13.1413086668
 10
252.1980730356
 20
13.8579676001
 10
253.1298489768
 20
14.5064845471
 10
254.065989638
 20
15.0838358224
 10
255.0021302991
 20
15.587329548
 10
255.9339062404
 20
16.0146182036
 10
256.8569730921
 20
16.3637095723
 10
257.7670270907
 20
16.6329760289
 10
258.6598251441
 20
16.821162129
 10
259.5312046159
 20
16.9273904621
 10
259.9555285787
 20
16.9495425517
  0
ARC
  5
D2
330
1F
100
AcDbEntity
  8
0
  6
Continuous
 62
     7
370
    25
100
AcDbCircle
 10
253.1990016453
 20
-9.0097153393
 30
0.0
 40
12.85521026929039
100
AcDbArc
 50
178.5134176929
 51
206.3324166552
  0
LINE
  5
D3
330
1F
100
AcDbEntity
  8
0
  6
Continuous
 62
     7
370
    25
100
AcDbLine
 10
281.2896007137
 20
-47.1158658213
 30
0.0
 11
258.3086303251
 21
-45.0610207681
 31
0.0
  0
LINE
  5
D4
330
1F
100
AcDbEntity
  8
0
  6
Continuous
 62
     7
370
    25
100
AcDbLine
 10
258.3086303251
 20
-45.0610207681
 30
0.0
 11
258.3086303251
 21
-32.0730117911
 31
0.0
  0
LINE
  5
D5
330
1F
100
AcDbEntity
  8
0
  6
Continuous
 62
     7
370
    25
100
AcDbLine
 10
280.3143393791
 20
12.9568258312
 30
0.0
 11
281.2896007137
 21
14.1700416598
 31
0.0
  0
LINE
  5
D6
330
1F
100
AcDbEntity
  8
0
  6
Continuous
 62
     7
370
    25
100
AcDbLine
 10
281.2896007137
 20
14.1700416598
 30
0.0
 11
304.2705711022
 21
12.1151966067
 31
0.0
  0
LINE
  5
D7
330
1F
100
AcDbEntity
  8
0
  6
Continuous
 62
     7
370
    25
100
AcDbLine
 10
304.2705711022
 20
12.1151966067
 30
0.0
 11
304.2705711022
 21
-18.5277571339
 31
0.0
  0
LINE
  5
D8
330
1F
100
AcDbEntity
  8
0
  6
Continuous
 62
     7
370
    25
100
AcDbLine
 10
304.2705711022
 20
-18.5277571339
 30
0.0
 11
281.2896007137
 21
-47.1158658213
 31
0.0
  0
LINE
  5
D9
330
1F
100
AcDbEntity
  8
0
  6
Continuous
 62
     7
370
    25
100
AcDbLine
 10
304.2705711022
 20
-18.5277571339
 30
0.0
 11
317.3520465542
 21
-26.0795321682
 31
0.0
  0
LINE
  5
DA
330
1F
100
AcDbEntity
  8
0
  6
Continuous
 62
     7
370
    25
100
AcDbLine
 10
294.3710761656
 20
-54.6676408556
 30
0.0
 11
317.3520465542
 21
-26.0795321682
 31
0.0
  0
LINE
  5
DB
330
1F
100
AcDbEntity
  8
0
  6
Continuous
 62
     7
370
    25
100
AcDbLine
 10
281.2896007137
 20
-47.1158658213
 30
0.0
 11
294.3710761656
 21
-54.6676408556
 31
0.0
  0
LINE
  5
DC
330
1F
100
AcDbEntity
  8
0
  6
Continuous
 62
     7
370
    25
100
AcDbLine
 10
304.2705711022
 20
12.1151966067
 30
0.0
 11
317.3520465542
 21
4.5634215723
 31
0.0
  0
LINE
  5
DD
330
1F
100
AcDbEntity
  8
0
  6
Continuous
 62
     7
370
    25
100
AcDbLine
 10
317.3520465542
 20
-26.0795321682
 30
0.0
 11
317.3520465542
 21
4.5634215723
 31
0.0
  0
LINE
  5
DE
330
1F
100
AcDbEntity
  8
0
  6
Continuous
 62
     7
370
    25
100
AcDbLine
 10
258.3086303251
 20
-45.0610207681
 30
0.0
 11
271.390105777
 21
-52.6127958025
 31
0.0
  0
LINE
  5
DF
330
1F
100
AcDbEntity
  8
0
  6
Continuous
 62
     7
370
    25
100
AcDbLine
 10
271.390105777
 20
-52.6127958025
 30
0.0
 11
294.3710761656
 21
-54.6676408556
 31
0.0
  0
LINE
  5
E0
330
1F
100
AcDbEntity
  8
0
  6
Continuous
 62
     7
370
    25
100
AcDbLine
 10
108.0823425481
 20
13.9207449319
 30
0.0
 11
108.0823425481
 21
-4.0792550681
 31
0.0
  0
LINE
  5
E1
330
1F
100
AcDbEntity
  8
0
  6
Continuous
 62
     7
370
    25
100
AcDbLine
 10
171.5823425481
 20
-4.0792550681
 30
0.0
 11
171.5823425481
 21
13.9207449319
 31
0.0
  0
LINE
  5
E2
330
1F
100
AcDbEntity
  8
0
  6
Continuous
 62
     7
370
    25
100
AcDbLine
 10
114.8323425481
 20
-22.5792550681
 30
0.0
 11
114.8323425481
 21
-72.0792550681
 31
0.0
  0
LINE
  5
E3
330
1F
100
AcDbEntity
  8
0
  6
Continuous
 62
     7
370
    25
100
AcDbLine
 10
164.8323425481
 20
-72.0792550681
 30
0.0
 11
164.8323425481
 21
-22.5792550681
 31
0.0
  0
LINE
  5
E4
330
1F
100
AcDbEntity
  8
0
  6
Continuous
 62
     7
370
    25
100
AcDbLine
 10
108.0823425481
 20
13.9207449319
 30
0.0
 11
171.5823425481
 21
13.9207449319
 31
0.0
  0
LINE
  5
E5
330
1F
100
AcDbEntity
  8
0
  6
Continuous
 62
     7
370
    25
100
AcDbLine
 10
139.8323425481
 20
-22.5792550681
 30
0.0
 11
139.8323425481
 21
-4.0792550681
 31
0.0
  0
LINE
  5
E6
330
1F
100
AcDbEntity
  8
0
  6
Continuous
 62
     7
370
    25
100
AcDbLine
 10
172.3323425481
 20
-4.0792550681
 30
0.0
 11
139.8323425481
 21
-4.0792550681
 31
0.0
  0
LINE
  5
E7
330
1F
100
AcDbEntity
  8
0
  6
Continuous
 62
     7
370
    25
100
AcDbLine
 10
172.3323425481
 20
-22.5792550681
 30
0.0
 11
172.3323425481
 21
-4.0792550681
 31
0.0
  0
LINE
  5
E8
330
1F
100
AcDbEntity
  8
0
  6
Continuous
 62
     7
370
    25
100
AcDbLine
 10
139.8323425481
 20
-22.5792550681
 30
0.0
 11
172.3323425481
 21
-22.5792550681
 31
0.0
  0
LINE
  5
E9
330
1F
100
AcDbEntity
  8
0
  6
Continuous
 62
     7
370
    25
100
AcDbLine
 10
107.3323425481
 20
-22.5792550681
 30
0.0
 11
107.3323425481
 21
-4.0792550681
 31
0.0
  0
LINE
  5
EA
330
1F
100
AcDbEntity
  8
0
  6
Continuous
 62
     7
370
    25
100
AcDbLine
 10
139.8323425481
 20
-4.0792550681
 30
0.0
 11
107.3323425481
 21
-4.0792550681
 31
0.0
  0
LINE
  5
EB
330
1F
100
AcDbEntity
  8
0
  6
Continuous
 62
     7
370
    25
100
AcDbLine
 10
107.3323425481
 20
-22.5792550681
 30
0.0
 11
139.8323425481
 21
-22.5792550681
 31
0.0
  0
LINE
  5
EC
330
1F
100
AcDbEntity
  8
0
  6
Continuous
 62
     7
370
    25
100
AcDbLine
 10
114.8323425481
 20
-72.0792550681
 30
0.0
 11
164.8323425481
 21
-72.0792550681
 31
0.0
  0
ENDSEC
  0
SECTION
  2
OBJECTS
  0
DICTIONARY
  5
C
330
0
100
AcDbDictionary
281
     1
  3
ACAD_GROUP
350
D
  3
ACAD_LAYOUT
350
1A
  3
ACAD_MLINESTYLE
350
17
  3
ACAD_PLOTSETTINGS
350
19
  3
ACAD_PLOTSTYLENAME
350
E
  3
ACAD_SCALELIST
350
47
  3
DWGPROPS
350
ED
  0
DICTIONARY
  5
D
102
{ACAD_REACTORS
330
C
102
}
330
C
100
AcDbDictionary
281
     1
  0
DICTIONARY
  5
1A
102
{ACAD_REACTORS
330
C
102
}
330
C
100
AcDbDictionary
281
     1
  3
Layout1
350
1E
  3
Layout2
350
26
  3
Model
350
22
  0
DICTIONARY
  5
17
102
{ACAD_REACTORS
330
C
102
}
330
C
100
AcDbDictionary
281
     1
  3
Standard
350
18
  0
DICTIONARY
  5
19
102
{ACAD_REACTORS
330
C
102
}
330
C
100
AcDbDictionary
281
     1
  0
ACDBDICTIONARYWDFLT
  5
E
102
{ACAD_REACTORS
330
C
102
}
330
C
100
AcDbDictionary
281
     1
  3
Normal
350
F
100
AcDbDictionaryWithDefault
340
F
  0
DICTIONARY
  5
47
102
{ACAD_REACTORS
330
C
102
}
330
C
100
AcDbDictionary
281
     1
  3
A0
350
48
  3
A1
350
49
  3
A2
350
4A
  3
A3
350
4B
  3
A4
350
4C
  3
A5
350
4D
  3
A6
350
4E
  3
A7
350
4F
  3
A8
350
50
  3
A9
350
51
  3
B0
350
52
  3
B1
350
53
  3
B2
350
54
  3
B3
350
55
  3
B4
350
56
  3
B5
350
57
  3
B6
350
58
  3
B7
350
59
  3
B8
350
5A
  3
B9
350
5B
  3
C0
350
5C
  3
C1
350
5D
  3
C2
350
5E
  3
C3
350
5F
  3
C4
350
60
  3
C5
350
61
  3
C6
350
62
  3
C7
350
63
  3
C8
350
64
  3
C9
350
65
  3
D0
350
66
  3
D1
350
67
  3
D2
350
68
  0
XRECORD
  5
ED
102
{ACAD_REACTORS
330
C
102
}
330
C
100
AcDbXrecord
280
     1
  1
DWGPROPS COOKIE
  2

  3

  4

  6

  7

  8
b.kav
  9

300
=
301
=
302
=
303
=
304
=
305
=
306
=
307
=
308
=
309
=
 40
0.0
 41
2459935.584312963
 42
2459935.584313137
  1

 90
        0
  0
LAYOUT
  5
1E
102
{ACAD_REACTORS
330
1A
102
}
330
1A
100
AcDbPlotSettings
  1

  2
none_device
  4

  6

 40
0.0
 41
0.0
 42
0.0
 43
0.0
 44
0.0
 45
0.0
 46
0.0
 47
0.0
 48
0.0
 49
0.0
140
0.0
141
0.0
142
1.0
143
1.0
 70
   688
 72
     1
 73
     0
 74
     5
  7

 75
    16
147
1.0
148
0.0
149
0.0
100
AcDbLayout
  1
Layout1
 70
     1
 71
     1
 10
0.0
 20
0.0
 11
420.0
 21
297.0
 12
0.0
 22
0.0
 32
0.0
 14
1.0000000000E+20
 24
1.0000000000E+20
 34
1.0000000000E+20
 15
-1.0000000000E+20
 25
-1.0000000000E+20
 35
-1.0000000000E+20
146
0.0
 13
0.0
 23
0.0
 33
0.0
 16
1.0
 26
0.0
 36
0.0
 17
0.0
 27
1.0
 37
0.0
 76
     0
330
1B
  0
LAYOUT
  5
26
102
{ACAD_REACTORS
330
1A
102
}
330
1A
100
AcDbPlotSettings
  1

  2
none_device
  4

  6

 40
0.0
 41
0.0
 42
0.0
 43
0.0
 44
0.0
 45
0.0
 46
0.0
 47
0.0
 48
0.0
 49
0.0
140
0.0
141
0.0
142
1.0
143
1.0
 70
   688
 72
     1
 73
     0
 74
     5
  7

 75
    16
147
1.0
148
0.0
149
0.0
100
AcDbLayout
  1
Layout2
 70
     1
 71
     2
 10
0.0
 20
0.0
 11
0.0
 21
0.0
 12
0.0
 22
0.0
 32
0.0
 14
0.0
 24
0.0
 34
0.0
 15
0.0
 25
0.0
 35
0.0
146
0.0
 13
0.0
 23
0.0
 33
0.0
 16
1.0
 26
0.0
 36
0.0
 17
0.0
 27
1.0
 37
0.0
 76
     0
330
23
  0
LAYOUT
  5
22
102
{ACAD_REACTORS
330
1A
102
}
330
1A
100
AcDbPlotSettings
  1

  2
none_device
  4
Letter_(8.50_x_11.00_Inches)
  6

 40
6.35
 41
6.35
 42
6.35000508
 43
6.35000508
 44
215.9
 45
279.4
 46
0.0
 47
0.0
 48
0.0
 49
0.0
140
0.0
141
0.0
142
1.0
143
1.0
 70
  1712
 72
     1
 73
     0
 74
     0
  7

 75
     0
147
1.0
148
0.0
149
0.0
100
AcDbLayout
  1
Model
 70
     1
 71
     0
 10
0.0
 20
0.0
 11
279.4
 21
215.9
 12
0.0
 22
0.0
 32
0.0
 14
0.0
 24
0.0
 34
0.0
 15
279.4
 25
215.9
 35
0.0
146
0.0
 13
0.0
 23
0.0
 33
0.0
 16
1.0
 26
0.0
 36
0.0
 17
0.0
 27
1.0
 37
0.0
 76
     0
330
1F
331
29
  0
MLINESTYLE
  5
18
102
{ACAD_REACTORS
330
17
102
}
330
17
100
AcDbMlineStyle
  2
Standard
 70
     0
  3

 62
   256
 51
90.0
 52
90.0
 71
     2
 49
0.5
 62
   256
  6
BYLAYER
 49
-0.5
 62
   256
  6
BYLAYER
  0
ACDBPLACEHOLDER
  5
F
102
{ACAD_REACTORS
330
E
102
}
330
E
  0
SCALE
  5
48
102
{ACAD_REACTORS
330
47
102
}
330
47
100
AcDbScale
 70
     0
300
1:1
140
1.0
141
1.0
290
     1
  0
SCALE
  5
49
102
{ACAD_REACTORS
330
47
102
}
330
47
100
AcDbScale
 70
     0
300
1:2
140
1.0
141
2.0
290
     0
  0
SCALE
  5
4A
102
{ACAD_REACTORS
330
47
102
}
330
47
100
AcDbScale
 70
     0
300
1:4
140
1.0
141
4.0
290
     0
  0
SCALE
  5
4B
102
{ACAD_REACTORS
330
47
102
}
330
47
100
AcDbScale
 70
     0
300
1:5
140
1.0
141
5.0
290
     0
  0
SCALE
  5
4C
102
{ACAD_REACTORS
330
47
102
}
330
47
100
AcDbScale
 70
     0
300
1:8
140
1.0
141
8.0
290
     0
  0
SCALE
  5
4D
102
{ACAD_REACTORS
330
47
102
}
330
47
100
AcDbScale
 70
     0
300
1:10
140
1.0
141
10.0
290
     0
  0
SCALE
  5
4E
102
{ACAD_REACTORS
330
47
102
}
330
47
100
AcDbScale
 70
     0
300
1:16
140
1.0
141
16.0
290
     0
  0
SCALE
  5
4F
102
{ACAD_REACTORS
330
47
102
}
330
47
100
AcDbScale
 70
     0
300
1:20
140
1.0
141
20.0
290
     0
  0
SCALE
  5
50
102
{ACAD_REACTORS
330
47
102
}
330
47
100
AcDbScale
 70
     0
300
1:30
140
1.0
141
30.0
290
     0
  0
SCALE
  5
51
102
{ACAD_REACTORS
330
47
102
}
330
47
100
AcDbScale
 70
     0
300
1:40
140
1.0
141
40.0
290
     0
  0
SCALE
  5
52
102
{ACAD_REACTORS
330
47
102
}
330
47
100
AcDbScale
 70
     0
300
1:50
140
1.0
141
50.0
290
     0
  0
SCALE
  5
53
102
{ACAD_REACTORS
330
47
102
}
330
47
100
AcDbScale
 70
     0
300
1:100
140
1.0
141
100.0
290
     0
  0
SCALE
  5
54
102
{ACAD_REACTORS
330
47
102
}
330
47
100
AcDbScale
 70
     0
300
2:1
140
2.0
141
1.0
290
     0
  0
SCALE
  5
55
102
{ACAD_REACTORS
330
47
102
}
330
47
100
AcDbScale
 70
     0
300
4:1
140
4.0
141
1.0
290
     0
  0
SCALE
  5
56
102
{ACAD_REACTORS
330
47
102
}
330
47
100
AcDbScale
 70
     0
300
8:1
140
8.0
141
1.0
290
     0
  0
SCALE
  5
57
102
{ACAD_REACTORS
330
47
102
}
330
47
100
AcDbScale
 70
     0
300
10:1
140
10.0
141
1.0
290
     0
  0
SCALE
  5
58
102
{ACAD_REACTORS
330
47
102
}
330
47
100
AcDbScale
 70
     0
300
100:1
140
100.0
141
1.0
290
     0
  0
SCALE
  5
59
102
{ACAD_REACTORS
330
47
102
}
330
47
100
AcDbScale
 70
     0
300
1/128" = 1'-0"
140
0.0078125
141
12.0
290
     0
  0
SCALE
  5
5A
102
{ACAD_REACTORS
330
47
102
}
330
47
100
AcDbScale
 70
     0
300
1/64" = 1'-0"
140
0.015625
141
12.0
290
     0
  0
SCALE
  5
5B
102
{ACAD_REACTORS
330
47
102
}
330
47
100
AcDbScale
 70
     0
300
1/32" = 1'-0"
140
0.03125
141
12.0
290
     0
  0
SCALE
  5
5C
102
{ACAD_REACTORS
330
47
102
}
330
47
100
AcDbScale
 70
     0
300
1/16" = 1'-0"
140
0.0625
141
12.0
290
     0
  0
SCALE
  5
5D
102
{ACAD_REACTORS
330
47
102
}
330
47
100
AcDbScale
 70
     0
300
3/32" = 1'-0"
140
0.09375
141
12.0
290
     0
  0
SCALE
  5
5E
102
{ACAD_REACTORS
330
47
102
}
330
47
100
AcDbScale
 70
     0
300
1/8" = 1'-0"
140
0.125
141
12.0
290
     0
  0
SCALE
  5
5F
102
{ACAD_REACTORS
330
47
102
}
330
47
100
AcDbScale
 70
     0
300
3/16" = 1'-0"
140
0.1875
141
12.0
290
     0
  0
SCALE
  5
60
102
{ACAD_REACTORS
330
47
102
}
330
47
100
AcDbScale
 70
     0
300
1/4" = 1'-0"
140
0.25
141
12.0
290
     0
  0
SCALE
  5
61
102
{ACAD_REACTORS
330
47
102
}
330
47
100
AcDbScale
 70
     0
300
3/8" = 1'-0"
140
0.375
141
12.0
290
     0
  0
SCALE
  5
62
102
{ACAD_REACTORS
330
47
102
}
330
47
100
AcDbScale
 70
     0
300
1/2" = 1'-0"
140
0.5
141
12.0
290
     0
  0
SCALE
  5
63
102
{ACAD_REACTORS
330
47
102
}
330
47
100
AcDbScale
 70
     0
300
3/4" = 1'-0"
140
0.75
141
12.0
290
     0
  0
SCALE
  5
64
102
{ACAD_REACTORS
330
47
102
}
330
47
100
AcDbScale
 70
     0
300
1" = 1'-0"
140
1.0
141
12.0
290
     0
  0
SCALE
  5
65
102
{ACAD_REACTORS
330
47
102
}
330
47
100
AcDbScale
 70
     0
300
1-1/2" = 1'-0"
140
1.5
141
12.0
290
     0
  0
SCALE
  5
66
102
{ACAD_REACTORS
330
47
102
}
330
47
100
AcDbScale
 70
     0
300
3" = 1'-0"
140
3.0
141
12.0
290
     0
  0
SCALE
  5
67
102
{ACAD_REACTORS
330
47
102
}
330
47
100
AcDbScale
 70
     0
300
6" = 1'-0"
140
6.0
141
12.0
290
     0
  0
SCALE
  5
68
102
{ACAD_REACTORS
330
47
102
}
330
47
100
AcDbScale
 70
     0
300
1'-0" = 1'-0"
140
12.0
141
12.0
290
     0
  0
ENDSEC
  0
EOF
